ISO-10303-21;
HEADER;
/* Generated by software containing ST-Developer
 * from STEP Tools, Inc. (www.steptools.com) 
 */

FILE_DESCRIPTION(
/* description */ (''),
/* implementation_level */ '2;1');

FILE_NAME(
/* name */ 
'D:\\Jadzia\\Inventor\\___wyk\X2\0142\X0\ad_Inv\\zal_zlozenie\\DD\\ci\X2\0119\X0\g
no2.stp',
/* time_stamp */ '2023-01-07T15:27:36+01:00',
/* author */ ('PJ'),
/* organization */ (''),
/* preprocessor_version */ 'ST-DEVELOPER v19',
/* originating_system */ 'Autodesk Inventor 2023',
/* authorisation */ '');

FILE_SCHEMA (('AUTOMOTIVE_DESIGN { 1 0 10303 214 3 1 1 }'));
ENDSEC;

DATA;
#10=MECHANICAL_DESIGN_GEOMETRIC_PRESENTATION_REPRESENTATION('',(#13),#463);
#11=SHAPE_REPRESENTATION_RELATIONSHIP('SRR','None',#470,#12);
#12=ADVANCED_BREP_SHAPE_REPRESENTATION('',(#14),#462);
#13=STYLED_ITEM('',(#479),#14);
#14=MANIFOLD_SOLID_BREP('Bry\X2\0142\X0\a1',#233);
#15=FACE_BOUND('',#55,.T.);
#16=FACE_BOUND('',#57,.T.);
#17=SPHERICAL_SURFACE('',#275,42.);
#18=ELLIPSE('',#272,45.6271358510224,42.);
#19=ELLIPSE('',#274,45.6271358510224,42.);
#20=B_SPLINE_CURVE_WITH_KNOTS('',3,(#391,#392,#393,#394,#395,#396,#397,
#398,#399,#400,#401,#402,#403,#404),.UNSPECIFIED.,.F.,.F.,(4,2,2,2,2,2,
4),(1.37910487416984,1.5656775411167,1.74754692767486,1.92941631423301,
2.11128570079117,2.29315508734933,2.47972775429618),.UNSPECIFIED.);
#21=B_SPLINE_CURVE_WITH_KNOTS('',3,(#408,#409,#410,#411,#412,#413,#414,
#415,#416,#417,#418,#419,#420,#421),.UNSPECIFIED.,.F.,.F.,(4,2,2,2,2,2,
4),(1.37910487416984,1.5656775411167,1.74754692767486,1.92941631423301,
2.11128570079117,2.29315508734933,2.47972775429618),.UNSPECIFIED.);
#22=TOROIDAL_SURFACE('',#266,12.,2.);
#23=PLANE('',#262);
#24=PLANE('',#271);
#25=PLANE('',#273);
#26=PLANE('',#286);
#27=PLANE('',#287);
#28=CYLINDRICAL_SURFACE('',#259,10.);
#29=CYLINDRICAL_SURFACE('',#263,34.);
#30=CYLINDRICAL_SURFACE('',#284,42.);
#31=CYLINDRICAL_SURFACE('',#285,42.);
#32=FACE_OUTER_BOUND('',#44,.T.);
#33=FACE_OUTER_BOUND('',#45,.T.);
#34=FACE_OUTER_BOUND('',#46,.T.);
#35=FACE_OUTER_BOUND('',#47,.T.);
#36=FACE_OUTER_BOUND('',#48,.T.);
#37=FACE_OUTER_BOUND('',#49,.T.);
#38=FACE_OUTER_BOUND('',#50,.T.);
#39=FACE_OUTER_BOUND('',#51,.T.);
#40=FACE_OUTER_BOUND('',#52,.T.);
#41=FACE_OUTER_BOUND('',#53,.T.);
#42=FACE_OUTER_BOUND('',#54,.T.);
#43=FACE_OUTER_BOUND('',#56,.T.);
#44=EDGE_LOOP('',(#154,#155,#156,#157));
#45=EDGE_LOOP('',(#158,#159,#160,#161,#162));
#46=EDGE_LOOP('',(#163));
#47=EDGE_LOOP('',(#164,#165,#166,#167));
#48=EDGE_LOOP('',(#168,#169,#170,#171,#172,#173,#174,#175,#176));
#49=EDGE_LOOP('',(#177,#178,#179,#180,#181));
#50=EDGE_LOOP('',(#182,#183,#184,#185));
#51=EDGE_LOOP('',(#186,#187,#188,#189,#190,#191,#192,#193,#194,#195));
#52=EDGE_LOOP('',(#196,#197,#198,#199));
#53=EDGE_LOOP('',(#200,#201,#202,#203));
#54=EDGE_LOOP('',(#204,#205,#206,#207,#208,#209));
#55=EDGE_LOOP('',(#210));
#56=EDGE_LOOP('',(#211,#212,#213,#214,#215,#216,#217,#218));
#57=EDGE_LOOP('',(#219));
#58=LINE('',#370,#69);
#59=LINE('',#374,#70);
#60=LINE('',#383,#71);
#61=LINE('',#425,#72);
#62=LINE('',#428,#73);
#63=LINE('',#431,#74);
#64=LINE('',#434,#75);
#65=LINE('',#453,#76);
#66=LINE('',#454,#77);
#67=LINE('',#456,#78);
#68=LINE('',#457,#79);
#69=VECTOR('',#294,9.);
#70=VECTOR('',#299,10.);
#71=VECTOR('',#310,34.);
#72=VECTOR('',#325,10.);
#73=VECTOR('',#328,10.);
#74=VECTOR('',#331,10.);
#75=VECTOR('',#334,10.);
#76=VECTOR('',#355,10.);
#77=VECTOR('',#356,10.);
#78=VECTOR('',#359,10.);
#79=VECTOR('',#360,10.);
#80=CIRCLE('',#257,8.);
#81=CIRCLE('',#258,10.);
#82=CIRCLE('',#260,10.);
#83=CIRCLE('',#261,10.);
#84=CIRCLE('',#264,34.);
#85=CIRCLE('',#265,34.);
#86=CIRCLE('',#267,2.);
#87=CIRCLE('',#268,12.);
#88=CIRCLE('',#269,12.);
#89=CIRCLE('',#270,12.);
#90=CIRCLE('',#276,42.);
#91=CIRCLE('',#277,40.6663251351779);
#92=CIRCLE('',#278,42.);
#93=CIRCLE('',#279,40.6663251351779);
#94=CIRCLE('',#280,42.);
#95=CIRCLE('',#281,40.6663251351779);
#96=CIRCLE('',#282,42.);
#97=CIRCLE('',#283,40.6663251351779);
#98=VERTEX_POINT('',#367);
#99=VERTEX_POINT('',#369);
#100=VERTEX_POINT('',#373);
#101=VERTEX_POINT('',#375);
#102=VERTEX_POINT('',#380);
#103=VERTEX_POINT('',#382);
#104=VERTEX_POINT('',#386);
#105=VERTEX_POINT('',#388);
#106=VERTEX_POINT('',#390);
#107=VERTEX_POINT('',#405);
#108=VERTEX_POINT('',#407);
#109=VERTEX_POINT('',#424);
#110=VERTEX_POINT('',#426);
#111=VERTEX_POINT('',#430);
#112=VERTEX_POINT('',#432);
#113=VERTEX_POINT('',#436);
#114=VERTEX_POINT('',#437);
#115=VERTEX_POINT('',#439);
#116=VERTEX_POINT('',#441);
#117=VERTEX_POINT('',#443);
#118=VERTEX_POINT('',#445);
#119=VERTEX_POINT('',#447);
#120=VERTEX_POINT('',#449);
#121=EDGE_CURVE('',#98,#98,#80,.T.);
#122=EDGE_CURVE('',#98,#99,#58,.T.);
#123=EDGE_CURVE('',#99,#99,#81,.T.);
#124=EDGE_CURVE('',#99,#100,#59,.T.);
#125=EDGE_CURVE('',#101,#100,#82,.T.);
#126=EDGE_CURVE('',#100,#101,#83,.T.);
#127=EDGE_CURVE('',#102,#102,#84,.T.);
#128=EDGE_CURVE('',#102,#103,#60,.T.);
#129=EDGE_CURVE('',#103,#103,#85,.T.);
#130=EDGE_CURVE('',#101,#104,#86,.T.);
#131=EDGE_CURVE('',#104,#105,#87,.T.);
#132=EDGE_CURVE('',#106,#105,#20,.F.);
#133=EDGE_CURVE('',#106,#107,#88,.T.);
#134=EDGE_CURVE('',#108,#107,#21,.F.);
#135=EDGE_CURVE('',#108,#104,#89,.T.);
#136=EDGE_CURVE('',#109,#108,#61,.T.);
#137=EDGE_CURVE('',#109,#110,#18,.T.);
#138=EDGE_CURVE('',#105,#110,#62,.T.);
#139=EDGE_CURVE('',#111,#106,#63,.T.);
#140=EDGE_CURVE('',#111,#112,#19,.T.);
#141=EDGE_CURVE('',#107,#112,#64,.T.);
#142=EDGE_CURVE('',#113,#114,#90,.T.);
#143=EDGE_CURVE('',#115,#114,#91,.T.);
#144=EDGE_CURVE('',#115,#116,#92,.T.);
#145=EDGE_CURVE('',#117,#115,#93,.T.);
#146=EDGE_CURVE('',#118,#117,#94,.T.);
#147=EDGE_CURVE('',#119,#117,#95,.T.);
#148=EDGE_CURVE('',#120,#119,#96,.T.);
#149=EDGE_CURVE('',#113,#120,#97,.T.);
#150=EDGE_CURVE('',#114,#109,#65,.T.);
#151=EDGE_CURVE('',#110,#113,#66,.T.);
#152=EDGE_CURVE('',#112,#119,#67,.T.);
#153=EDGE_CURVE('',#120,#111,#68,.T.);
#154=ORIENTED_EDGE('',*,*,#121,.T.);
#155=ORIENTED_EDGE('',*,*,#122,.T.);
#156=ORIENTED_EDGE('',*,*,#123,.T.);
#157=ORIENTED_EDGE('',*,*,#122,.F.);
#158=ORIENTED_EDGE('',*,*,#123,.F.);
#159=ORIENTED_EDGE('',*,*,#124,.T.);
#160=ORIENTED_EDGE('',*,*,#125,.F.);
#161=ORIENTED_EDGE('',*,*,#126,.F.);
#162=ORIENTED_EDGE('',*,*,#124,.F.);
#163=ORIENTED_EDGE('',*,*,#121,.F.);
#164=ORIENTED_EDGE('',*,*,#127,.F.);
#165=ORIENTED_EDGE('',*,*,#128,.T.);
#166=ORIENTED_EDGE('',*,*,#129,.F.);
#167=ORIENTED_EDGE('',*,*,#128,.F.);
#168=ORIENTED_EDGE('',*,*,#126,.T.);
#169=ORIENTED_EDGE('',*,*,#130,.T.);
#170=ORIENTED_EDGE('',*,*,#131,.T.);
#171=ORIENTED_EDGE('',*,*,#132,.F.);
#172=ORIENTED_EDGE('',*,*,#133,.T.);
#173=ORIENTED_EDGE('',*,*,#134,.F.);
#174=ORIENTED_EDGE('',*,*,#135,.T.);
#175=ORIENTED_EDGE('',*,*,#130,.F.);
#176=ORIENTED_EDGE('',*,*,#125,.T.);
#177=ORIENTED_EDGE('',*,*,#135,.F.);
#178=ORIENTED_EDGE('',*,*,#136,.F.);
#179=ORIENTED_EDGE('',*,*,#137,.T.);
#180=ORIENTED_EDGE('',*,*,#138,.F.);
#181=ORIENTED_EDGE('',*,*,#131,.F.);
#182=ORIENTED_EDGE('',*,*,#133,.F.);
#183=ORIENTED_EDGE('',*,*,#139,.F.);
#184=ORIENTED_EDGE('',*,*,#140,.T.);
#185=ORIENTED_EDGE('',*,*,#141,.F.);
#186=ORIENTED_EDGE('',*,*,#142,.T.);
#187=ORIENTED_EDGE('',*,*,#143,.F.);
#188=ORIENTED_EDGE('',*,*,#144,.T.);
#189=ORIENTED_EDGE('',*,*,#144,.F.);
#190=ORIENTED_EDGE('',*,*,#145,.F.);
#191=ORIENTED_EDGE('',*,*,#146,.F.);
#192=ORIENTED_EDGE('',*,*,#146,.T.);
#193=ORIENTED_EDGE('',*,*,#147,.F.);
#194=ORIENTED_EDGE('',*,*,#148,.F.);
#195=ORIENTED_EDGE('',*,*,#149,.F.);
#196=ORIENTED_EDGE('',*,*,#137,.F.);
#197=ORIENTED_EDGE('',*,*,#150,.F.);
#198=ORIENTED_EDGE('',*,*,#142,.F.);
#199=ORIENTED_EDGE('',*,*,#151,.F.);
#200=ORIENTED_EDGE('',*,*,#152,.F.);
#201=ORIENTED_EDGE('',*,*,#140,.F.);
#202=ORIENTED_EDGE('',*,*,#153,.F.);
#203=ORIENTED_EDGE('',*,*,#148,.T.);
#204=ORIENTED_EDGE('',*,*,#151,.T.);
#205=ORIENTED_EDGE('',*,*,#149,.T.);
#206=ORIENTED_EDGE('',*,*,#153,.T.);
#207=ORIENTED_EDGE('',*,*,#139,.T.);
#208=ORIENTED_EDGE('',*,*,#132,.T.);
#209=ORIENTED_EDGE('',*,*,#138,.T.);
#210=ORIENTED_EDGE('',*,*,#127,.T.);
#211=ORIENTED_EDGE('',*,*,#150,.T.);
#212=ORIENTED_EDGE('',*,*,#136,.T.);
#213=ORIENTED_EDGE('',*,*,#134,.T.);
#214=ORIENTED_EDGE('',*,*,#141,.T.);
#215=ORIENTED_EDGE('',*,*,#152,.T.);
#216=ORIENTED_EDGE('',*,*,#147,.T.);
#217=ORIENTED_EDGE('',*,*,#145,.T.);
#218=ORIENTED_EDGE('',*,*,#143,.T.);
#219=ORIENTED_EDGE('',*,*,#129,.T.);
#220=CONICAL_SURFACE('',#256,9.,0.78539816339745);
#221=ADVANCED_FACE('',(#32),#220,.T.);
#222=ADVANCED_FACE('',(#33),#28,.T.);
#223=ADVANCED_FACE('',(#34),#23,.T.);
#224=ADVANCED_FACE('',(#35),#29,.F.);
#225=ADVANCED_FACE('',(#36),#22,.F.);
#226=ADVANCED_FACE('',(#37),#24,.T.);
#227=ADVANCED_FACE('',(#38),#25,.T.);
#228=ADVANCED_FACE('',(#39),#17,.T.);
#229=ADVANCED_FACE('',(#40),#30,.T.);
#230=ADVANCED_FACE('',(#41),#31,.T.);
#231=ADVANCED_FACE('',(#42,#15),#26,.T.);
#232=ADVANCED_FACE('',(#43,#16),#27,.F.);
#233=CLOSED_SHELL('',(#221,#222,#223,#224,#225,#226,#227,#228,#229,#230,
#231,#232));
#234=DERIVED_UNIT_ELEMENT(#237,1.);
#235=DERIVED_UNIT_ELEMENT(#465,-3.);
#236=DIMENSIONAL_EXPONENTS(1.,0.,0.,0.,0.,0.,0.);
#237=(
CONVERSION_BASED_UNIT('gram',#239)
MASS_UNIT()
NAMED_UNIT(#236)
);
#238=(
MASS_UNIT()
NAMED_UNIT(*)
SI_UNIT(.KILO.,.GRAM.)
);
#239=MASS_MEASURE_WITH_UNIT(MASS_MEASURE(0.001),#238);
#240=DERIVED_UNIT((#234,#235));
#241=MEASURE_REPRESENTATION_ITEM('density measure',
POSITIVE_RATIO_MEASURE(7.85),#240);
#242=PROPERTY_DEFINITION_REPRESENTATION(#247,#244);
#243=PROPERTY_DEFINITION_REPRESENTATION(#248,#245);
#244=REPRESENTATION('material name',(#246),#462);
#245=REPRESENTATION('density',(#241),#462);
#246=DESCRIPTIVE_REPRESENTATION_ITEM('Stal','Stal');
#247=PROPERTY_DEFINITION('material property','material name',#472);
#248=PROPERTY_DEFINITION('material property','density of part',#472);
#249=DATE_TIME_ROLE('creation_date');
#250=APPLIED_DATE_AND_TIME_ASSIGNMENT(#251,#249,(#472));
#251=DATE_AND_TIME(#252,#253);
#252=CALENDAR_DATE(2018,9,12);
#253=LOCAL_TIME(0,0,0.,#254);
#254=COORDINATED_UNIVERSAL_TIME_OFFSET(0,0,.BEHIND.);
#255=AXIS2_PLACEMENT_3D('placement',#365,#288,#289);
#256=AXIS2_PLACEMENT_3D('',#366,#290,#291);
#257=AXIS2_PLACEMENT_3D('',#368,#292,#293);
#258=AXIS2_PLACEMENT_3D('',#371,#295,#296);
#259=AXIS2_PLACEMENT_3D('',#372,#297,#298);
#260=AXIS2_PLACEMENT_3D('',#376,#300,#301);
#261=AXIS2_PLACEMENT_3D('',#377,#302,#303);
#262=AXIS2_PLACEMENT_3D('',#378,#304,#305);
#263=AXIS2_PLACEMENT_3D('',#379,#306,#307);
#264=AXIS2_PLACEMENT_3D('',#381,#308,#309);
#265=AXIS2_PLACEMENT_3D('',#384,#311,#312);
#266=AXIS2_PLACEMENT_3D('',#385,#313,#314);
#267=AXIS2_PLACEMENT_3D('',#387,#315,#316);
#268=AXIS2_PLACEMENT_3D('',#389,#317,#318);
#269=AXIS2_PLACEMENT_3D('',#406,#319,#320);
#270=AXIS2_PLACEMENT_3D('',#422,#321,#322);
#271=AXIS2_PLACEMENT_3D('',#423,#323,#324);
#272=AXIS2_PLACEMENT_3D('',#427,#326,#327);
#273=AXIS2_PLACEMENT_3D('',#429,#329,#330);
#274=AXIS2_PLACEMENT_3D('',#433,#332,#333);
#275=AXIS2_PLACEMENT_3D('',#435,#335,#336);
#276=AXIS2_PLACEMENT_3D('',#438,#337,#338);
#277=AXIS2_PLACEMENT_3D('',#440,#339,#340);
#278=AXIS2_PLACEMENT_3D('',#442,#341,#342);
#279=AXIS2_PLACEMENT_3D('',#444,#343,#344);
#280=AXIS2_PLACEMENT_3D('',#446,#345,#346);
#281=AXIS2_PLACEMENT_3D('',#448,#347,#348);
#282=AXIS2_PLACEMENT_3D('',#450,#349,#350);
#283=AXIS2_PLACEMENT_3D('',#451,#351,#352);
#284=AXIS2_PLACEMENT_3D('',#452,#353,#354);
#285=AXIS2_PLACEMENT_3D('',#455,#357,#358);
#286=AXIS2_PLACEMENT_3D('',#458,#361,#362);
#287=AXIS2_PLACEMENT_3D('',#459,#363,#364);
#288=DIRECTION('axis',(0.,0.,1.));
#289=DIRECTION('refdir',(1.,0.,0.));
#290=DIRECTION('center_axis',(0.,-1.,0.));
#291=DIRECTION('ref_axis',(-1.,0.,0.));
#292=DIRECTION('center_axis',(0.,-1.,0.));
#293=DIRECTION('ref_axis',(-1.,0.,0.));
#294=DIRECTION('',(0.707106781186549,-0.707106781186546,-8.65956056235495E-17));
#295=DIRECTION('center_axis',(0.,1.,0.));
#296=DIRECTION('ref_axis',(-1.,0.,0.));
#297=DIRECTION('center_axis',(0.,1.,0.));
#298=DIRECTION('ref_axis',(-1.,0.,0.));
#299=DIRECTION('',(0.,-1.,0.));
#300=DIRECTION('center_axis',(0.,-1.,0.));
#301=DIRECTION('ref_axis',(-1.,0.,0.));
#302=DIRECTION('center_axis',(0.,-1.,0.));
#303=DIRECTION('ref_axis',(-1.,0.,0.));
#304=DIRECTION('center_axis',(0.,1.,0.));
#305=DIRECTION('ref_axis',(0.,0.,1.));
#306=DIRECTION('center_axis',(-1.,0.,0.));
#307=DIRECTION('ref_axis',(0.,-1.,0.));
#308=DIRECTION('center_axis',(-1.,0.,0.));
#309=DIRECTION('ref_axis',(0.,-1.,0.));
#310=DIRECTION('',(-1.,0.,0.));
#311=DIRECTION('center_axis',(1.,0.,0.));
#312=DIRECTION('ref_axis',(0.,-1.,0.));
#313=DIRECTION('center_axis',(0.,-1.,0.));
#314=DIRECTION('ref_axis',(0.,0.,-1.));
#315=DIRECTION('center_axis',(-1.,0.,-1.22464679914735E-16));
#316=DIRECTION('ref_axis',(-1.22464679914735E-16,0.,1.));
#317=DIRECTION('center_axis',(0.,1.,0.));
#318=DIRECTION('ref_axis',(-1.,0.,0.));
#319=DIRECTION('center_axis',(0.,1.,0.));
#320=DIRECTION('ref_axis',(-1.,0.,0.));
#321=DIRECTION('center_axis',(0.,1.,0.));
#322=DIRECTION('ref_axis',(-1.,0.,0.));
#323=DIRECTION('center_axis',(0.,1.,0.));
#324=DIRECTION('ref_axis',(0.,0.,1.));
#325=DIRECTION('',(0.,0.,-1.));
#326=DIRECTION('center_axis',(0.,1.,0.));
#327=DIRECTION('ref_axis',(-3.89320260031278E-16,0.,-1.));
#328=DIRECTION('',(0.,0.,1.));
#329=DIRECTION('center_axis',(0.,1.,0.));
#330=DIRECTION('ref_axis',(0.,0.,1.));
#331=DIRECTION('',(0.,0.,1.));
#332=DIRECTION('center_axis',(0.,1.,0.));
#333=DIRECTION('ref_axis',(1.94660130015639E-16,0.,1.));
#334=DIRECTION('',(0.,0.,-1.));
#335=DIRECTION('center_axis',(6.12323399573677E-17,0.,1.));
#336=DIRECTION('ref_axis',(1.,0.,0.));
#337=DIRECTION('center_axis',(0.,-0.92050485345244,0.390731128489273));
#338=DIRECTION('ref_axis',(0.668221285655081,-0.290689336587746,-0.68482116131998));
#339=DIRECTION('center_axis',(-1.,0.,0.));
#340=DIRECTION('ref_axis',(0.,0.,-1.));
#341=DIRECTION('center_axis',(-1.22464679914735E-16,1.,0.));
#342=DIRECTION('ref_axis',(-1.,-1.22464679914735E-16,0.));
#343=DIRECTION('center_axis',(-1.,0.,0.));
#344=DIRECTION('ref_axis',(0.,0.,-1.));
#345=DIRECTION('center_axis',(-1.22464679914735E-16,1.,0.));
#346=DIRECTION('ref_axis',(-1.,-1.22464679914735E-16,0.));
#347=DIRECTION('center_axis',(-1.,0.,0.));
#348=DIRECTION('ref_axis',(0.,0.,-1.));
#349=DIRECTION('center_axis',(0.,0.92050485345244,0.390731128489274));
#350=DIRECTION('ref_axis',(0.668221285655081,-0.290689336587747,0.68482116131998));
#351=DIRECTION('center_axis',(1.,0.,0.));
#352=DIRECTION('ref_axis',(0.,0.,1.));
#353=DIRECTION('center_axis',(0.,0.92050485345244,-0.390731128489274));
#354=DIRECTION('ref_axis',(0.668221285655081,-0.290689336587746,-0.68482116131998));
#355=DIRECTION('',(0.,0.92050485345244,-0.390731128489274));
#356=DIRECTION('',(0.,-0.92050485345244,0.390731128489274));
#357=DIRECTION('center_axis',(0.,-0.92050485345244,-0.390731128489274));
#358=DIRECTION('ref_axis',(0.668221285655081,-0.290689336587746,0.68482116131998));
#359=DIRECTION('',(0.,-0.92050485345244,-0.390731128489274));
#360=DIRECTION('',(0.,0.92050485345244,0.390731128489274));
#361=DIRECTION('center_axis',(1.,0.,0.));
#362=DIRECTION('ref_axis',(0.,0.,-1.));
#363=DIRECTION('center_axis',(1.,0.,0.));
#364=DIRECTION('ref_axis',(0.,0.,-1.));
#365=CARTESIAN_POINT('',(0.,0.,0.));
#366=CARTESIAN_POINT('Origin',(0.,161.,0.));
#367=CARTESIAN_POINT('',(8.,162.,9.79717439317883E-16));
#368=CARTESIAN_POINT('Origin',(0.,162.,0.));
#369=CARTESIAN_POINT('',(10.,160.,-1.22464679914735E-15));
#370=CARTESIAN_POINT('',(9.,161.,-1.10218211923262E-15));
#371=CARTESIAN_POINT('Origin',(0.,160.,0.));
#372=CARTESIAN_POINT('Origin',(0.,72.,0.));
#373=CARTESIAN_POINT('',(10.,74.,1.22464679914735E-15));
#374=CARTESIAN_POINT('',(10.,72.,-1.22464679914735E-15));
#375=CARTESIAN_POINT('',(-1.22464679914735E-15,74.,10.));
#376=CARTESIAN_POINT('Origin',(0.,74.,0.));
#377=CARTESIAN_POINT('Origin',(0.,74.,0.));
#378=CARTESIAN_POINT('Origin',(-4.72128241470665E-16,162.,0.));
#379=CARTESIAN_POINT('Origin',(0.,0.,0.));
#380=CARTESIAN_POINT('',(10.5,34.,-4.163799117101E-15));
#381=CARTESIAN_POINT('Origin',(10.5,0.,0.));
#382=CARTESIAN_POINT('',(-10.5,34.,-4.163799117101E-15));
#383=CARTESIAN_POINT('',(0.,34.,-4.163799117101E-15));
#384=CARTESIAN_POINT('Origin',(-10.5,0.,0.));
#385=CARTESIAN_POINT('Origin',(0.,74.,0.));
#386=CARTESIAN_POINT('',(-1.46957615897682E-15,72.,12.));
#387=CARTESIAN_POINT('Origin',(-1.46957615897682E-15,74.,12.));
#388=CARTESIAN_POINT('',(10.5,72.,5.80947501931112));
#389=CARTESIAN_POINT('Origin',(0.,72.,0.));
#390=CARTESIAN_POINT('',(10.5,72.,-5.80947501931112));
#391=CARTESIAN_POINT('Ctrl Pts',(10.5,72.,5.80947501931113));
#392=CARTESIAN_POINT('Ctrl Pts',(10.5,72.,5.18756612948828));
#393=CARTESIAN_POINT('Ctrl Pts',(10.5,72.0820263897928,4.44579700624026));
#394=CARTESIAN_POINT('Ctrl Pts',(10.5,72.2698249900804,3.23210018107852));
#395=CARTESIAN_POINT('Ctrl Pts',(10.5,72.3978320877614,2.57789653944449));
#396=CARTESIAN_POINT('Ctrl Pts',(10.5,72.6069223844587,1.26581754065467));
#397=CARTESIAN_POINT('Ctrl Pts',(10.5,72.6771243444677,0.606231288527195));
#398=CARTESIAN_POINT('Ctrl Pts',(10.5,72.6771243444677,-0.606231288527195));
#399=CARTESIAN_POINT('Ctrl Pts',(10.5,72.6069223844587,-1.26581754065467));
#400=CARTESIAN_POINT('Ctrl Pts',(10.5,72.3978320877614,-2.57789653944449));
#401=CARTESIAN_POINT('Ctrl Pts',(10.5,72.2698249900804,-3.23210018107852));
#402=CARTESIAN_POINT('Ctrl Pts',(10.5,72.0820263897928,-4.44579700624026));
#403=CARTESIAN_POINT('Ctrl Pts',(10.5,72.,-5.18756612948828));
#404=CARTESIAN_POINT('Ctrl Pts',(10.5,72.,-5.80947501931113));
#405=CARTESIAN_POINT('',(-10.5,72.,-5.80947501931112));
#406=CARTESIAN_POINT('Origin',(0.,72.,0.));
#407=CARTESIAN_POINT('',(-10.5,72.,5.80947501931112));
#408=CARTESIAN_POINT('Ctrl Pts',(-10.5,72.,-5.80947501931113));
#409=CARTESIAN_POINT('Ctrl Pts',(-10.5,72.,-5.18756612948828));
#410=CARTESIAN_POINT('Ctrl Pts',(-10.5,72.0820263897928,-4.44579700624026));
#411=CARTESIAN_POINT('Ctrl Pts',(-10.5,72.2698249900804,-3.23210018107852));
#412=CARTESIAN_POINT('Ctrl Pts',(-10.5,72.3978320877614,-2.57789653944449));
#413=CARTESIAN_POINT('Ctrl Pts',(-10.5,72.6069223844587,-1.26581754065467));
#414=CARTESIAN_POINT('Ctrl Pts',(-10.5,72.6771243444677,-0.606231288527195));
#415=CARTESIAN_POINT('Ctrl Pts',(-10.5,72.6771243444677,0.606231288527195));
#416=CARTESIAN_POINT('Ctrl Pts',(-10.5,72.6069223844587,1.26581754065467));
#417=CARTESIAN_POINT('Ctrl Pts',(-10.5,72.3978320877614,2.57789653944449));
#418=CARTESIAN_POINT('Ctrl Pts',(-10.5,72.2698249900804,3.23210018107852));
#419=CARTESIAN_POINT('Ctrl Pts',(-10.5,72.0820263897928,4.44579700624026));
#420=CARTESIAN_POINT('Ctrl Pts',(-10.5,72.,5.18756612948828));
#421=CARTESIAN_POINT('Ctrl Pts',(-10.5,72.,5.80947501931113));
#422=CARTESIAN_POINT('Origin',(0.,72.,0.));
#423=CARTESIAN_POINT('Origin',(0.,72.,-15.0649490839309));
#424=CARTESIAN_POINT('',(-10.5,72.,13.6160975544467));
#425=CARTESIAN_POINT('',(-10.5,72.,-15.0649490839309));
#426=CARTESIAN_POINT('',(10.5,72.,13.6160975544467));
#427=CARTESIAN_POINT('Origin',(0.,72.,-30.5621867670916));
#428=CARTESIAN_POINT('',(10.5,72.,-15.0649490839309));
#429=CARTESIAN_POINT('Origin',(0.,72.,-15.0649490839309));
#430=CARTESIAN_POINT('',(10.5,72.,-13.6160975544467));
#431=CARTESIAN_POINT('',(10.5,72.,-15.0649490839309));
#432=CARTESIAN_POINT('',(-10.5,72.,-13.6160975544467));
#433=CARTESIAN_POINT('Origin',(0.,72.,30.5621867670915));
#434=CARTESIAN_POINT('',(-10.5,72.,-15.0649490839309));
#435=CARTESIAN_POINT('Origin',(0.,-3.5527136788005E-14,2.22044604925031E-14));
#436=CARTESIAN_POINT('',(10.5,15.8895991115798,37.4335496590061));
#437=CARTESIAN_POINT('',(-10.5,15.8895991115798,37.4335496590061));
#438=CARTESIAN_POINT('Origin',(0.,7.30996061991839E-14,-5.87441662203334E-14));
#439=CARTESIAN_POINT('',(-10.5,-3.68130159271097E-14,40.666325135178));
#440=CARTESIAN_POINT('Origin',(-10.5,-3.5527136788005E-14,2.22044604925031E-14));
#441=CARTESIAN_POINT('',(-2.57175827820944E-15,-3.5527136788005E-14,42.0000000000001));
#442=CARTESIAN_POINT('Origin',(0.,-3.5527136788005E-14,2.22044604925031E-14));
#443=CARTESIAN_POINT('',(-10.5,-3.68130159271097E-14,-40.6663251351779));
#444=CARTESIAN_POINT('Origin',(-10.5,-3.5527136788005E-14,2.22044604925031E-14));
#445=CARTESIAN_POINT('',(-2.57175827820944E-15,-3.5527136788005E-14,-42.));
#446=CARTESIAN_POINT('Origin',(0.,-3.5527136788005E-14,2.22044604925031E-14));
#447=CARTESIAN_POINT('',(-10.5,15.8895991115797,-37.4335496590062));
#448=CARTESIAN_POINT('Origin',(-10.5,-3.5527136788005E-14,2.22044604925031E-14));
#449=CARTESIAN_POINT('',(10.5,15.8895991115797,-37.4335496590062));
#450=CARTESIAN_POINT('Origin',(0.,-3.5527136788005E-14,2.22044604925031E-14));
#451=CARTESIAN_POINT('Origin',(10.5,-3.5527136788005E-14,2.22044604925031E-14));
#452=CARTESIAN_POINT('Origin',(0.,7.30996061991839E-14,-5.87441662203334E-14));
#453=CARTESIAN_POINT('',(-10.5,15.8895991115798,37.4335496590061));
#454=CARTESIAN_POINT('',(10.5,15.8895991115798,37.4335496590061));
#455=CARTESIAN_POINT('Origin',(0.,60.7368729603571,25.7812729869937));
#456=CARTESIAN_POINT('',(-10.5,76.6264720719369,-11.6522766720124));
#457=CARTESIAN_POINT('',(10.5,76.6264720719369,-11.6522766720124));
#458=CARTESIAN_POINT('Origin',(10.5,44.2787453366282,-5.9322562685683E-15));
#459=CARTESIAN_POINT('Origin',(-10.5,44.2787453366282,-5.9322562685683E-15));
#460=UNCERTAINTY_MEASURE_WITH_UNIT(LENGTH_MEASURE(0.01),#464,
'DISTANCE_ACCURACY_VALUE',
'Maximum model space distance between geometric entities at asserted c
onnectivities');
#461=UNCERTAINTY_MEASURE_WITH_UNIT(LENGTH_MEASURE(0.01),#464,
'DISTANCE_ACCURACY_VALUE',
'Maximum model space distance between geometric entities at asserted c
onnectivities');
#462=(
GEOMETRIC_REPRESENTATION_CONTEXT(3)
GLOBAL_UNCERTAINTY_ASSIGNED_CONTEXT((#460))
GLOBAL_UNIT_ASSIGNED_CONTEXT((#464,#466,#467))
REPRESENTATION_CONTEXT('','3D')
);
#463=(
GEOMETRIC_REPRESENTATION_CONTEXT(3)
GLOBAL_UNCERTAINTY_ASSIGNED_CONTEXT((#461))
GLOBAL_UNIT_ASSIGNED_CONTEXT((#464,#466,#467))
REPRESENTATION_CONTEXT('','3D')
);
#464=(
LENGTH_UNIT()
NAMED_UNIT(*)
SI_UNIT(.MILLI.,.METRE.)
);
#465=(
LENGTH_UNIT()
NAMED_UNIT(*)
SI_UNIT(.CENTI.,.METRE.)
);
#466=(
NAMED_UNIT(*)
PLANE_ANGLE_UNIT()
SI_UNIT($,.RADIAN.)
);
#467=(
NAMED_UNIT(*)
SI_UNIT($,.STERADIAN.)
SOLID_ANGLE_UNIT()
);
#468=SHAPE_DEFINITION_REPRESENTATION(#469,#470);
#469=PRODUCT_DEFINITION_SHAPE('',$,#472);
#470=SHAPE_REPRESENTATION('',(#255),#462);
#471=PRODUCT_DEFINITION_CONTEXT('part definition',#476,'design');
#472=PRODUCT_DEFINITION('ci\X2\0119\X0\gno2','ci\X2\0119\X0\gno2',#473,
#471);
#473=PRODUCT_DEFINITION_FORMATION('',$,#478);
#474=PRODUCT_RELATED_PRODUCT_CATEGORY('ci\X2\0119\X0\gno2','ci\X2\0119\X0\g
no2',(#478));
#475=APPLICATION_PROTOCOL_DEFINITION('international standard',
'automotive_design',2009,#476);
#476=APPLICATION_CONTEXT(
'Core Data for Automotive Mechanical Design Process');
#477=PRODUCT_CONTEXT('part definition',#476,'mechanical');
#478=PRODUCT('ci\X2\0119\X0\gno2','ci\X2\0119\X0\gno2',$,(#477));
#479=PRESENTATION_STYLE_ASSIGNMENT((#480));
#480=SURFACE_STYLE_USAGE(.BOTH.,#481);
#481=SURFACE_SIDE_STYLE('',(#482));
#482=SURFACE_STYLE_FILL_AREA(#483);
#483=FILL_AREA_STYLE('',(#484));
#484=FILL_AREA_STYLE_COLOUR('',#485);
#485=COLOUR_RGB('',0.301960784313725,0.305882352941176,0.290196078431373);
ENDSEC;
END-ISO-10303-21;
